0
SECTION
2
HEADER
9
$INSUNITS
70
4
9
$ACADVER
1
AC1014
9
$HANDSEED
5
FFFF
0
ENDSEC
0
SECTION
2
TABLES
0
TABLE
2
VPORT
5
8
100
AcDbSymbolTable
0
ENDTAB
0
TABLE
2
LTYPE
5
5
100
AcDbSymbolTable
0
LTYPE
5
14
100
AcDbSymbolTableRecord
100
AcDbLinetypeTableRecord
2
BYBLOCK
70
0
0
LTYPE
5
15
100
AcDbSymbolTableRecord
100
AcDbLinetypeTableRecord
2
BYLAYER
70
0
0
ENDTAB
0
TABLE
2
LAYER
5
2
100
AcDbSymbolTable
70
2
0
LAYER
5
50
100
AcDbSymbolTableRecord
100
AcDbLayerTableRecord
2
0
70
0
6
CONTINUOUS
0
ENDTAB
0
TABLE
2
STYLE
5
3
100
AcDbSymbolTable
70
1
0
STYLE
5
11
100
AcDbSymbolTableRecord
100
AcDbTextStyleTableRecord
2
STANDARD
70
0
0
ENDTAB
0
TABLE
2
VIEW
5
6
100
AcDbSymbolTable
70
0
0
ENDTAB
0
TABLE
2
UCS
5
7
100
AcDbSymbolTable
70
0
0
ENDTAB
0
TABLE
2
APPID
5
9
100
AcDbSymbolTable
70
2
0
APPID
5
12
100
AcDbSymbolTableRecord
100
AcDbRegAppTableRecord
2
ACAD
70
0
0
ENDTAB
0
TABLE
2
DIMSTYLE
5
A
100
AcDbSymbolTable
70
1
0
ENDTAB
0
TABLE
2
BLOCK_RECORD
5
1
100
AcDbSymbolTable
70
1
0
BLOCK_RECORD
5
1F
100
AcDbSymbolTableRecord
100
AcDbBlockTableRecord
2
*MODEL_SPACE
0
BLOCK_RECORD
5
1B
100
AcDbSymbolTableRecord
100
AcDbBlockTableRecord
2
*PAPER_SPACE
0
ENDTAB
0
ENDSEC
0
SECTION
2
BLOCKS
0
BLOCK
5
20
100
AcDbEntity
100
AcDbBlockBegin
2
*MODEL_SPACE
0
ENDBLK
5
21
100
AcDbEntity
100
AcDbBlockEnd
0
BLOCK
5
1C
100
AcDbEntity
100
AcDbBlockBegin
2
*PAPER_SPACE
0
ENDBLK
5
1D
100
AcDbEntity
100
AcDbBlockEnd
0
ENDSEC
0
SECTION
2
ENTITIES
0
CIRCLE
5
100
100
AcDbEntity
8
0
100
AcDbCircle
10
-1225.9562554469012
20
-352.53285453279068
30
0
40
2
0
CIRCLE
5
101
100
AcDbEntity
8
0
100
AcDbCircle
10
-1425.9562554469012
20
-352.53285453279068
30
0
40
2
0
LWPOLYLINE
5
102
100
AcDbEntity
8
0
100
AcDbPolyline
90
4
70
1
43
0.0
10
-1488.4562554469012
20
-416.62222752103952
10
-1163.4562554469012
20
-416.62222752103958
10
-1163.4562554469012
20
-394.12222752103958
10
-1488.4562554469012
20
-394.12222752103958
0
CIRCLE
5
103
100
AcDbEntity
8
0
100
AcDbCircle
10
-1248.9388094337166
20
-497.26660962807387
30
0
40
62.5
0
CIRCLE
5
104
100
AcDbEntity
8
0
100
AcDbCircle
10
-1402.9737014600855
20
-497.26660962807387
30
0
40
62.5
0
LWPOLYLINE
5
105
100
AcDbEntity
8
0
100
AcDbPolyline
90
4
70
1
43
0.0
10
-1493.4562554469012
20
-246.38285453279059
10
-1158.4562554469012
20
-246.38285453279059
10
-1158.4562554469012
20
-586.3828545327907
10
-1493.4562554469012
20
-586.3828545327907
0
CIRCLE
5
106
100
AcDbEntity
8
0
100
AcDbCircle
10
-1248.9388094337166
20
-497.26660962807387
30
0
40
62.5
0
CIRCLE
5
107
100
AcDbEntity
8
0
100
AcDbCircle
10
-1402.9737014600855
20
-497.26660962807387
30
0
40
62.5
0
CIRCLE
5
108
100
AcDbEntity
8
0
100
AcDbCircle
10
-1420.9562554469012
20
-405.37222752103958
30
0
40
2
0
LWPOLYLINE
5
109
100
AcDbEntity
8
0
100
AcDbPolyline
90
4
70
1
43
0.0
10
-1163.4562554469012
20
-394.12222752103958
10
-1163.4562554469012
20
-416.62222752103958
10
-1488.4562554469012
20
-416.62222752103958
10
-1488.4562554469012
20
-394.12222752103958
0
CIRCLE
5
110
100
AcDbEntity
8
0
100
AcDbCircle
10
-1225.9562554469012
20
-352.53285453279068
30
0
40
2.0000000000005151
0
CIRCLE
5
111
100
AcDbEntity
8
0
100
AcDbCircle
10
-1425.9562554469012
20
-352.53285453279068
30
0
40
2.0000000000005151
0
CIRCLE
5
112
100
AcDbEntity
8
0
100
AcDbCircle
10
-1420.9562554469012
20
-405.37222752103958
30
0
40
2.0000000000000417
0
CIRCLE
5
113
100
AcDbEntity
8
0
100
AcDbCircle
10
-1248.9388094337166
20
-497.26660962807387
30
0
40
62.5
0
CIRCLE
5
114
100
AcDbEntity
8
0
100
AcDbCircle
10
-1402.9737014600855
20
-497.26660962807387
30
0
40
62.5
0
LWPOLYLINE
5
115
100
AcDbEntity
8
0
100
AcDbPolyline
90
4
70
1
43
0.0
10
-1493.4562554469012
20
-586.3828545327907
10
-1158.4562554469012
20
-586.3828545327907
10
-1158.4562554469012
20
-246.38285453279067
10
-1493.4562554469012
20
-246.38285453279067
0
LWPOLYLINE
5
116
100
AcDbEntity
8
0
100
AcDbPolyline
90
4
70
1
43
0.0
10
-563.45625544690108
20
-231.42301899591536
10
-563.45625544690108
20
-401.82143604616374
10
-888.45625544690108
20
-401.82143604616374
10
-888.45625544690108
20
-231.42301899591536
0
LWPOLYLINE
5
117
100
AcDbEntity
8
0
100
AcDbPolyline
90
4
70
1
43
0.0
10
-450.95625544690108
20
-266.22381047079131
10
-450.95625544690108
20
-116.62222752103965
10
-125.95625544690107
20
-116.62222752103965
10
-125.95625544690101
20
-266.22381047079125
0
LWPOLYLINE
5
118
100
AcDbEntity
8
0
100
AcDbPolyline
90
4
70
1
43
0.0
10
-1563.4562554469012
20
-394.12222752103958
10
-1888.4562554469012
20
-394.12222752103958
10
-1888.4562554469012
20
-416.62222752103952
10
-1563.4562554469012
20
-416.62222752103958
0
CIRCLE
5
119
100
AcDbEntity
8
0
100
AcDbCircle
10
-1802.9737014600855
20
-313.47784541400523
30
0
40
62.5
0
CIRCLE
5
120
100
AcDbEntity
8
0
100
AcDbCircle
10
-1648.9388094337166
20
-313.47784541400523
30
0
40
62.500000000000036
0
LWPOLYLINE
5
121
100
AcDbEntity
8
0
100
AcDbPolyline
90
4
70
1
43
0.0
10
-1893.4562554469012
20
-224.36160050928837
10
-1558.4562554469012
20
-224.36160050928848
10
-1558.4562554469012
20
-564.36160050928845
10
-1893.4562554469012
20
-564.36160050928834
0
CIRCLE
5
122
100
AcDbEntity
8
0
100
AcDbCircle
10
-1648.9388094337166
20
-313.47784541400523
30
0
40
62.500000000000036
0
CIRCLE
5
123
100
AcDbEntity
8
0
100
AcDbCircle
10
-1802.9737014600855
20
-313.47784541400523
30
0
40
62.5
0
LWPOLYLINE
5
124
100
AcDbEntity
8
0
100
AcDbPolyline
90
4
70
1
43
0.0
10
-1563.4562554469012
20
158.47777247896039
10
-1888.4562554469012
20
158.47777247896039
10
-1888.4562554469012
20
135.97777247896039
10
-1563.4562554469012
20
135.97777247896039
0
LWPOLYLINE
5
125
100
AcDbEntity
8
0
100
AcDbPolyline
90
4
70
1
43
0.0
10
-1899.7062554469012
20
253.37777247896042
10
-1552.2062554469012
20
253.37777247896042
10
-1552.2062554469012
20
-86.622227521039576
10
-1899.7062554469012
20
-86.622227521039576
0
CIRCLE
5
126
100
AcDbEntity
8
0
100
AcDbCircle
10
-1843.4562554469012
20
147.22777247896039
30
0
40
2
0
CIRCLE
5
127
100
AcDbEntity
8
0
100
AcDbCircle
10
-1608.4562554469012
20
147.22777247896039
30
0
40
2
0
LWPOLYLINE
5
128
100
AcDbEntity
8
0
100
AcDbPolyline
90
4
70
1
43
0.0
10
-1563.4562554469012
20
158.47777247896039
10
-1563.4562554469012
20
135.97777247896039
10
-1888.4562554469012
20
135.97777247896039
10
-1888.4562554469012
20
158.47777247896039
0
CIRCLE
5
129
100
AcDbEntity
8
0
100
AcDbCircle
10
-1843.4562554469012
20
147.22777247896039
30
0
40
2
0
CIRCLE
5
130
100
AcDbEntity
8
0
100
AcDbCircle
10
-1608.4562554469012
20
147.22777247896039
30
0
40
2
0
LWPOLYLINE
5
131
100
AcDbEntity
8
0
100
AcDbPolyline
90
4
70
1
43
0.0
10
-1910.9562554469012
20
253.37777247896042
10
-1910.9562554469012
20
-86.622227521039576
10
-1540.9562554469012
20
-86.622227521039576
10
-1540.9562554469012
20
253.37777247896042
0
LWPOLYLINE
5
132
100
AcDbEntity
8
0
100
AcDbPolyline
90
4
70
1
43
0.0
10
-1173.4562554469012
20
253.37777247896042
10
-1173.4562554469012
20
-86.622227521039576
10
-1478.4562554469012
20
-86.622227521039576
10
-1478.4562554469012
20
253.37777247896042
0
LWPOLYLINE
5
133
100
AcDbEntity
8
0
100
AcDbPolyline
90
4
70
1
43
0.0
10
-1150.9562554469012
20
-86.622227521039548
10
-1150.9562554469012
20
253.37777247896045
10
-990.55783839665287
20
253.37777247896042
10
-990.55783839665287
20
-86.622227521039562
0
CIRCLE
5
134
100
AcDbEntity
8
0
100
AcDbCircle
10
-1162.2062554469012
20
203.37777247896042
30
0
40
2
0
CIRCLE
5
135
100
AcDbEntity
8
0
100
AcDbCircle
10
-1162.2062554469012
20
-41.622227521039541
30
0
40
2
0
LWPOLYLINE
5
136
100
AcDbEntity
8
0
100
AcDbPolyline
90
4
70
1
43
0.0
10
-1150.9562554469012
20
253.37777247896042
10
-1150.9562554469012
20
-86.622227521039576
10
-1173.4562554469012
20
-86.622227521039605
10
-1173.4562554469012
20
253.37777247896045
0
CIRCLE
5
137
100
AcDbEntity
8
0
100
AcDbCircle
10
-979.30783839665287
20
-41.622227521039541
30
0
40
2
0
CIRCLE
5
138
100
AcDbEntity
8
0
100
AcDbCircle
10
-979.30783839665287
20
203.37777247896045
30
0
40
2
0
LWPOLYLINE
5
139
100
AcDbEntity
8
0
100
AcDbPolyline
90
4
70
1
43
0.0
10
-968.05783839665287
20
253.37777247896042
10
-968.05783839665287
20
-86.622227521039576
10
-990.55783839665287
20
-86.622227521039605
10
-990.55783839665287
20
253.37777247896045
0
CIRCLE
5
140
100
AcDbEntity
8
0
100
AcDbCircle
10
-885.95625544690108
20
19.527772478960479
30
0
40
2.0000000000000417
0
LWPOLYLINE
5
141
100
AcDbEntity
8
0
100
AcDbPolyline
90
4
70
1
43
0.0
10
-968.05783839665287
20
-86.622227521039505
10
-968.05783839665287
20
253.37777247896048
10
-823.45625544690108
20
253.37777247896048
10
-823.45625544690108
20
-86.622227521039576
0
LWPOLYLINE
5
142
100
AcDbEntity
8
0
100
AcDbPolyline
90
4
70
1
43
0.0
10
-1478.4562554469012
20
253.37777247896042
10
-1478.4562554469012
20
-86.622227521039576
10
-1483.4562554469012
20
-86.622227521039576
10
-1483.4562554469012
20
253.37777247896042
0
LWPOLYLINE
5
143
100
AcDbEntity
8
0
100
AcDbPolyline
90
4
70
1
43
0.0
10
-823.45625544690108
20
-86.622227521039548
10
-823.45625544690108
20
253.37777247896045
10
-818.45625544690108
20
253.37777247896048
10
-818.45625544690108
20
-86.622227521039505
0
LWPOLYLINE
5
144
100
AcDbEntity
8
0
100
AcDbPolyline
90
4
70
1
43
0.0
10
-1910.9562554469012
20
313.37777247896042
10
-1910.9562554469012
20
653.37777247896042
10
-1899.7062554469012
20
653.37777247896042
10
-1899.7062554469012
20
313.37777247896042
0
LWPOLYLINE
5
145
100
AcDbEntity
8
0
100
AcDbPolyline
90
4
70
1
43
0.0
10
-1899.7062554469012
20
313.37777247896042
10
-1899.7062554469012
20
653.37777247896042
10
-1552.2062554469012
20
653.37777247896042
10
-1552.2062554469012
20
313.37777247896042
0
LWPOLYLINE
5
146
100
AcDbEntity
8
0
100
AcDbPolyline
90
4
70
1
43
0.0
10
-1540.9562554469012
20
653.37777247896042
10
-1540.9562554469012
20
313.37777247896042
10
-1552.2062554469012
20
313.37777247896042
10
-1552.2062554469012
20
653.37777247896042
0
LWPOLYLINE
5
147
100
AcDbEntity
8
0
100
AcDbPolyline
90
4
70
1
43
0.0
10
-1528.4562554469012
20
653.37777247896042
10
-1528.4562554469012
20
313.37777247896037
10
-1533.4562554469012
20
313.37777247896042
10
-1533.4562554469012
20
653.37777247896042
0
CIRCLE
5
148
100
AcDbEntity
8
0
100
AcDbCircle
10
-1465.9562554469012
20
419.5277724789604
30
0
40
1.9999999999999978
0
LWPOLYLINE
5
149
100
AcDbEntity
8
0
100
AcDbPolyline
90
4
70
1
43
0.0
10
-1383.8546724971493
20
653.37777247896042
10
-1383.8546724971493
20
313.37777247896042
10
-1528.4562554469012
20
313.37777247896042
10
-1528.4562554469012
20
653.37777247896042
0
CIRCLE
5
150
100
AcDbEntity
8
0
100
AcDbCircle
10
-1372.6046724971493
20
358.37777247896042
30
0
40
2
0
CIRCLE
5
151
100
AcDbEntity
8
0
100
AcDbCircle
10
-1372.6046724971493
20
603.37777247896042
30
0
40
2
0
LWPOLYLINE
5
152
100
AcDbEntity
8
0
100
AcDbPolyline
90
4
70
1
43
0.0
10
-1361.3546724971493
20
653.37777247896042
10
-1361.3546724971493
20
313.37777247896037
10
-1383.8546724971493
20
313.37777247896042
10
-1383.8546724971493
20
653.37777247896042
0
LWPOLYLINE
5
153
100
AcDbEntity
8
0
100
AcDbPolyline
90
4
70
1
43
0.0
10
-1200.9562554469012
20
653.37777247896042
10
-1200.9562554469012
20
313.37777247896042
10
-1361.3546724971493
20
313.37777247896037
10
-1361.3546724971493
20
653.37777247896042
0
CIRCLE
5
154
100
AcDbEntity
8
0
100
AcDbCircle
10
-1189.7062554469012
20
358.37777247896042
30
0
40
2
0
CIRCLE
5
155
100
AcDbEntity
8
0
100
AcDbCircle
10
-1189.7062554469012
20
603.37777247896042
30
0
40
2
0
LWPOLYLINE
5
156
100
AcDbEntity
8
0
100
AcDbPolyline
90
4
70
1
43
0.0
10
-1178.4562554469012
20
653.37777247896042
10
-1178.4562554469012
20
313.37777247896037
10
-1200.9562554469012
20
313.37777247896042
10
-1200.9562554469012
20
653.37777247896042
0
LWPOLYLINE
5
157
100
AcDbEntity
8
0
100
AcDbPolyline
90
4
70
1
43
0.0
10
-1178.4562554469012
20
313.37777247896042
10
-1178.4562554469012
20
653.37777247896042
10
-873.45625544690108
20
653.37777247896042
10
-873.45625544690108
20
313.37777247896048
0
LWPOLYLINE
5
158
100
AcDbEntity
8
0
100
AcDbPolyline
90
4
70
1
43
0.0
10
-873.45625544690108
20
313.37777247896042
10
-873.45625544690108
20
653.37777247896042
10
-868.45625544690108
20
653.37777247896042
10
-868.45625544690108
20
313.37777247896042
0
LWPOLYLINE
5
159
100
AcDbEntity
8
0
100
AcDbPolyline
90
4
70
1
43
0.0
10
-463.45625544690108
20
491.27618952920875
10
-788.45625544690108
20
491.27618952920875
10
-788.45625544690108
20
635.87777247896042
10
-463.45625544690108
20
635.87777247896042
0
CIRCLE
5
160
100
AcDbEntity
8
0
100
AcDbCircle
10
-736.95625544690097
20
297.12777247896042
30
0
40
2
0
CIRCLE
5
161
100
AcDbEntity
8
0
100
AcDbCircle
10
-514.95625544690108
20
297.12777247896042
30
0
40
2
0
CIRCLE
5
162
100
AcDbEntity
8
0
100
AcDbCircle
10
-736.95625544690097
20
480.02618952920869
30
0
40
2
0
CIRCLE
5
163
100
AcDbEntity
8
0
100
AcDbCircle
10
-514.95625544690108
20
480.02618952920869
30
0
40
2
0
CIRCLE
5
164
100
AcDbEntity
8
0
100
AcDbCircle
10
-799.70625544690108
20
545.87777247896042
30
0
40
2
0
CIRCLE
5
165
100
AcDbEntity
8
0
100
AcDbCircle
10
-799.70625544690108
20
70.877772478960424
30
0
40
2
0
CIRCLE
5
166
100
AcDbEntity
8
0
100
AcDbCircle
10
-799.70625544690108
20
195.87777247896042
30
0
40
2
0
CIRCLE
5
167
100
AcDbEntity
8
0
100
AcDbCircle
10
-799.70625544690108
20
420.87777247896042
30
0
40
2
0
CIRCLE
5
168
100
AcDbEntity
8
0
100
AcDbCircle
10
-452.20625544690108
20
70.877772478960424
30
0
40
2
0
CIRCLE
5
169
100
AcDbEntity
8
0
100
AcDbCircle
10
-452.20625544690108
20
195.87777247896042
30
0
40
2
0
CIRCLE
5
170
100
AcDbEntity
8
0
100
AcDbCircle
10
-452.20625544690108
20
420.87777247896042
30
0
40
2
0
CIRCLE
5
171
100
AcDbEntity
8
0
100
AcDbCircle
10
-452.20625544690108
20
545.87777247896042
30
0
40
2
0
CIRCLE
5
172
100
AcDbEntity
8
0
100
AcDbCircle
10
-625.95625544690108
20
-30.372227521039576
30
0
40
2
0
CIRCLE
5
173
100
AcDbEntity
8
0
100
AcDbCircle
10
-508.45625544690108
20
-30.372227521039576
30
0
40
2
0
CIRCLE
5
174
100
AcDbEntity
8
0
100
AcDbCircle
10
-743.45625544690108
20
-30.372227521039576
30
0
40
2
0
CIRCLE
5
175
100
AcDbEntity
8
0
100
AcDbCircle
10
-625.95625544690108
20
647.12777247896042
30
0
40
2
0
CIRCLE
5
176
100
AcDbEntity
8
0
100
AcDbCircle
10
-743.45625544690108
20
647.12777247896042
30
0
40
2
0
CIRCLE
5
177
100
AcDbEntity
8
0
100
AcDbCircle
10
-508.45625544690108
20
647.12777247896042
30
0
40
2
0
LWPOLYLINE
5
178
100
AcDbEntity
8
0
100
AcDbPolyline
90
4
70
1
43
0.0
10
-440.95625544690108
20
658.37777247896042
10
-440.95625544690108
20
-41.622227521039576
10
-810.95625544690108
20
-41.622227521039576
10
-810.95625544690108
20
658.37777247896042
0
LWPOLYLINE
5
179
100
AcDbEntity
8
0
100
AcDbPolyline
90
4
70
1
43
0.0
10
-788.45625544690108
20
-19.122227521039576
10
-463.45625544690108
20
-19.122227521039576
10
-463.45625544690108
20
285.87777247896042
10
-788.45625544690108
20
285.87777247896042
0
LWPOLYLINE
5
180
100
AcDbEntity
8
0
100
AcDbPolyline
90
4
70
1
43
0.0
10
-788.45625544690108
20
308.37777247896042
10
-463.45625544690108
20
308.37777247896042
10
-463.45625544690108
20
468.77618952920875
10
-788.45625544690108
20
468.77618952920875
0
LWPOLYLINE
5
181
100
AcDbEntity
8
0
100
AcDbPolyline
90
4
70
1
43
0.0
10
-788.45625544690108
20
491.27618952920875
10
-463.45625544690108
20
491.27618952920875
10
-463.45625544690108
20
635.87777247896042
10
-788.45625544690108
20
635.87777247896042
0
LWPOLYLINE
5
182
100
AcDbEntity
8
0
100
AcDbPolyline
90
4
70
1
43
0.0
10
-463.45625544690108
20
308.37777247896042
10
-788.45625544690108
20
308.37777247896042
10
-788.45625544690108
20
468.77618952920875
10
-463.45625544690108
20
468.77618952920875
0
LWPOLYLINE
5
183
100
AcDbEntity
8
0
100
AcDbPolyline
90
4
70
1
43
0.0
10
-463.45625544690108
20
-19.122227521039576
10
-788.45625544690108
20
-19.122227521039576
10
-788.45625544690108
20
285.87777247896042
10
-463.45625544690108
20
285.87777247896042
0
LWPOLYLINE
5
184
100
AcDbEntity
8
0
100
AcDbPolyline
90
8
70
1
43
0.0
10
-645.95625544690108
20
20.877772478960431
10
-605.95625544690108
20
20.877772478960431
42
0.41421356237309404
10
-595.95625544690108
20
30.877772478960416
10
-595.95625544690108
20
50.877772478960424
42
0.41421356237309404
10
-605.95625544690108
20
60.877772478960409
10
-645.95625544690108
20
60.877772478960424
42
0.41421356237310181
10
-655.95625544690108
20
50.877772478960438
10
-655.95625544690108
20
30.877772478960424
42
0.41421356237310203
0
LWPOLYLINE
5
185
100
AcDbEntity
8
0
100
AcDbPolyline
90
8
70
1
43
0.0
10
-645.95625544690108
20
25.877772478960431
42
-0.41421356237309448
10
-650.95625544690108
20
30.877772478960424
10
-650.95625544690108
20
50.877772478960424
42
-0.41421356237309404
10
-645.95625544690108
20
55.877772478960424
10
-605.95625544690108
20
55.877772478960409
42
-0.41421356237309404
10
-600.95625544690108
20
50.877772478960424
10
-600.95625544690108
20
30.877772478960424
42
-0.41421356237309448
10
-605.95625544690108
20
25.877772478960431
0
LWPOLYLINE
5
186
100
AcDbEntity
8
0
100
AcDbPolyline
90
8
70
1
43
0.0
10
-645.95625544690108
20
20.877772478960431
42
-0.41421356237309476
10
-655.95625544690108
20
30.877772478960424
10
-655.95625544690108
20
50.877772478960438
42
-0.41421356237309404
10
-645.95625544690108
20
60.877772478960424
10
-605.95625544690097
20
60.877772478960409
42
-0.41421356237309243
10
-595.95625544690108
20
50.877772478960424
10
-595.95625544690108
20
30.877772478960416
42
-0.41421356237309448
10
-605.95625544690108
20
20.877772478960431
0
CIRCLE
5
187
100
AcDbEntity
8
0
100
AcDbCircle
10
-399.70625544690108
20
408.37777247896042
30
0
40
2
0
CIRCLE
5
188
100
AcDbEntity
8
0
100
AcDbCircle
10
-399.70625544690108
20
158.37777247896042
30
0
40
2
0
CIRCLE
5
189
100
AcDbEntity
8
0
100
AcDbCircle
10
-52.206255446901082
20
408.37777247896042
30
0
40
2
0
CIRCLE
5
190
100
AcDbEntity
8
0
100
AcDbCircle
10
-52.206255446901082
20
158.37777247896042
30
0
40
2
0
CIRCLE
5
191
100
AcDbEntity
8
0
100
AcDbCircle
10
-343.45625544690108
20
272.12777247896042
30
0
40
2
0
CIRCLE
5
192
100
AcDbEntity
8
0
100
AcDbCircle
10
-108.45625544690108
20
272.12777247896042
30
0
40
2
0
CIRCLE
5
193
100
AcDbEntity
8
0
100
AcDbCircle
10
-85.956255446901082
20
622.12777247896042
30
0
40
2
0
CIRCLE
5
194
100
AcDbEntity
8
0
100
AcDbCircle
10
-365.95625544690108
20
622.12777247896042
30
0
40
2
0
CIRCLE
5
195
100
AcDbEntity
8
0
100
AcDbCircle
10
-365.95625544690108
20
-55.372227521039576
30
0
40
2
0
CIRCLE
5
196
100
AcDbEntity
8
0
100
AcDbCircle
10
-85.956255446901082
20
-55.372227521039576
30
0
40
2
0
CIRCLE
5
197
100
AcDbEntity
8
0
100
AcDbCircle
10
-225.95625544690097
20
365.41176249759144
30
0
40
73
0
LWPOLYLINE
5
198
100
AcDbEntity
8
0
100
AcDbPolyline
90
4
70
1
43
0.0
10
-410.95625544690108
20
-66.622227521039576
10
-410.95625544690108
20
633.37777247896042
10
-40.956255446901082
20
633.37777247896042
10
-40.956255446901082
20
-66.622227521039576
0
CIRCLE
5
199
100
AcDbEntity
8
0
100
AcDbCircle
10
-225.95625544690105
20
535.70389594474227
30
0
40
57.5
0
CIRCLE
5
200
100
AcDbEntity
8
0
100
AcDbCircle
10
-225.95625544690108
20
114.79315100933157
30
0
40
141.49999999999997
0
CIRCLE
5
201
100
AcDbEntity
8
0
100
AcDbCircle
10
-225.95625544690105
20
535.70389594474227
30
0
40
57.5
0
CIRCLE
5
202
100
AcDbEntity
8
0
100
AcDbCircle
10
-225.95625544690097
20
365.41176249759144
30
0
40
73
0
CIRCLE
5
203
100
AcDbEntity
8
0
100
AcDbCircle
10
-225.95625544690108
20
114.79315100933157
30
0
40
141.49999999999997
0
LWPOLYLINE
5
204
100
AcDbEntity
8
0
100
AcDbPolyline
90
8
70
1
43
0.0
10
-258.07315524790704
20
505.61929720950377
10
-258.07315524790715
20
565.61929720950377
42
-0.41421356237308882
10
-243.07315524790704
20
580.61929720950377
10
-209.07315524790704
20
580.61929720950366
42
-0.41421356237309009
10
-194.07315524790715
20
565.61929720950366
10
-194.0731552479071
20
505.61929720950377
42
-0.41421356237309709
10
-209.07315524790707
20
490.61929720950377
10
-243.07315524790707
20
490.61929720950366
42
-0.41421356237309365
0
CIRCLE
5
205
100
AcDbEntity
8
0
100
AcDbCircle
10
-225.95625544690097
20
365.41176249759144
30
0
40
57.5
0
CIRCLE
5
206
100
AcDbEntity
8
0
100
AcDbCircle
10
-225.95625544690097
20
365.41176249759144
30
0
40
57.5
0
CIRCLE
5
207
100
AcDbEntity
8
0
100
AcDbCircle
10
-225.95625544690108
20
114.79315100933157
30
0
40
125
0
ENDSEC
0
SECTION
2
OBJECTS
0
DICTIONARY
5
C
100
AcDbDictionary
3
ACAD_GROUP
350
D
3
ACAD_MLINESTYLE
350
17
0
DICTIONARY
5
D
100
AcDbDictionary
0
DICTIONARY
5
1A
330
C
100
AcDbDictionary
0
DICTIONARY
5
17
100
AcDbDictionary
0
ENDSEC
0
EOF
